hide results

    Song Lyrics by Anubis Jehuty

    Version: 6.2 | Updated: 05/24/05 | Printable Version | Search This Guide

    Silent Hill 3 Lyrics Faq
    
    
    By: Anubis Jehuty
    E-mail: EnixSquared@gmail.com
    
    Tabs by: OverlordX
    E-mail: overlordx@phreaker.net
           xx_overlord_xx@yahoo.com
    
    
    
    This faq is copyright 2004 and any use of this faq on any site 
    other than GameFAQs is forbidden, this faq may only be used for
    personnel use. If you would like to put this faq on your site
    then please e-mail me first. Thank you.
    
    
    
    
    ===================
     Table of Contents
    ===================
    
    Section:                                Code:
    ----------------------------------------------
      Version                                  [V]
      Introduction                             [I]
      Lyrics                                   [L]
        You're not here                       [La]
        Letter-from the lost days             [Lb]
        I want love                           [Lc]
        I want love (studio mix)              [Ld]
        Hometown                              [Le]
        The Silent Hill Song                  [Lf]
      Tabs                                     [T]
        I want love                           [Ta]
      Spoken Tracks                            [S]
        Float Up From Dream                   [Sa]
        Sun                                   [Sb]
        Walk On Vanity Ruins                  [Sc]
        Breeze in Monochrome Night            [Sd]
        Clockwork Little Happiness            [Se]
        Dance With Night Wind                 [Sf]
      Contact                                  [C]
      Thanks                                 [Thx]
    ----------------------------------------------
    
    
    
    
    =============
     Version [V] 
    =============
    
    
    Version #   (MM/DD/YY)  What's been Changed
    -------------------------------------------
    
    Version 6.2 (05/24/05) Fixed a minor error in the layout.
    
    Version 6.1 (08/07/04) Corrected some errors and fixed the layout. The
                           "Introduction" section has been remade.
    
    Version 6.0 (08/06/04) Changed the layout to make it less ugly, updated contact
                           info, and added "codes" so you can reach sections easier.
                           I've also finally posted The Silent Hill song! I promised
                           it a year ago but now it's finally here! I'm trying to
                           figure out how I'll have the Japanese lyrics set up but
                           the English translation is here now!
    
    Version 5.1 (04/08/04) Updated contact information...again
    
    Version 5.0 (12/14/03) Updated contact information.
    
    Version 4.2 (10/02/03) Fixed more errors.
    
    Version 4.1 (09/30/03) Corrected an error on "Letter-From the lost days"
    
    Version 4.0 (09/29/03) Thanks to Daniel Münnig the spoken tracks section now
                           has the "missing" lyrics. Lyrics added: "Breeze
                           in Monochrome Night" "Clockwork Little Happiness"
                           and "Dance With Night Wind" 
    
    Version 3.4 (09/22/03) Fixed some typos.
    
    Version 3.3 (09/21/03) Made corrections, again.
    
    Version 3.2 (09/19/03) Made MAJOR corrections to the lyrics.
    
    Version 3.1 (09/19/03) Made some corrections to lyrics.
    
    Version 3.0 (09/09/03) Thanks to Postal075@aol.com for pointnig out "Walk On
                           Vanity Ruins" I missed that track...
    
    Version 2.0 (09/06/03) Added "Spoken Tracks", I plan to add The Silent Hill
                           song soon.
    
    Version 1.0 (08/24/03) All of the songs are up with lyrics excluding The Silent
                           Hill Song, which I'm going to add in the next version of
                           this faq, The only song in the tabs section is I want
                           love, more will be added soon.
    
    
    
    
    ==================
     Introduction [I]
    ==================
    
    
    Hey and welcome to my FAQ. I really don't have much to say and I doubt many
    people read these anyway. Well what are you waiting for? Just scroll down
    already.
    
    
    
    
    ============
     Lyrics [L]
    ============
    
    
    ++++++++++++++++++++++
     You're not here [La]
    ++++++++++++++++++++++
    
    Composer: Akira Yamaoka
    Performed By: Melissa Williamson
    Length: 3:45
    
    
    (0:29)Blue sky to forever
    (0:31)Green grass blows in the wind, dancing
    (0:36)It would be a much better sight,
    (0:40)With you, With me.
    
    (0:43)If you hadn't met me
    (0:45)I'd be fine on my own, baby
    (0:50)Never felt so lonely then you came along
    
    (0:55)So now what should I do?
    (0:59)I'm strung out addicted to you
    (1:02)My body aches now that you're gone
    (1:05)My supply fell through
    
    (1:10)You gladly gave me everything you had and more
    (1:15)You craved my happiness,
    (1:17)When you made me feel joy it made you smile
    (1:21)But now I feel your stress.
    (1:24)Love was never meant to be such a crazy affair, no?
    (1:29)And who has time for tears?
    (1:31)I never thought I'd sit around and cry for your love,
    (1:38)'till now...
    
    --Musical Solo--
    
    (1:58)Oh I feel your stress
    
    (2:05)Come on,
    (2:07)Oh, who has time for tears?
    (2:11)Oh, my baby
    
    (2:21)Yeah yeah
    
    (2:34)Yeah yeah yeah yeah yeah yeah
    
    (2:46)I feel your stress
    
    
    
    
    ++++++++++++++++++++++++++++++++
     Letter-from the lost days [Lb]
    ++++++++++++++++++++++++++++++++
    
    Composer: Akira Yamaoka
    Performed By: Melissa Williamson
    Length: 3:54
    
    
    (0:29)A letter to my futre-self
    (0:33)Am I still happy? I began,
    (0:37)Have I grown up pretty?
    (0:40)Is daddy still a good man?
    (0:44)Am I still friends with Coleen?
    (0:47)I'm sure that I'm still laughing...
    (0:51)Aren't I?
    (0:54)Aren't I?
    
    (1:05)Hey there to my future-self
    (1:10)If you forget how to smile
    (1:13)I have this to tell you
    (1:16)Remember it once in awhile
    (1:20)Ten years ago your past-self
    (1:24)Prayed for your happiness,
    (1:27)Please don't lose hope.
    
    (1:35)Oh, oh what a pair, me and you
    (1:42)Put here to feel joy, nothing blue
    (1:49)Sad times, and bad times, see them through
    (1:56)Soon we will know if it's for real
    (2:03)What we both feel...
    
    {Spoken}
    
    (2:18)Though I can't know for sure
    (2:20)How things worked out for us,
    (2:23)No matter how hard it gets
    (2:26)You have to realize: we weren't put on this earth
    (2:30)To suffer and cry
    (2:34)We were made for being happy-
    (2:37)So...be happy...For me. For you...
    (2:45)Please...
    
    {Sung}
    
    (2:47)Oh, oh what a pair, me and you
    (2:54)Put here to feel joy, nothing blue
    (3:02)Sad times, and bad times, see them through
    (3:09)Soon we will know if it's for real
    (3:16)What we both feel...
    
    (3:24)We were put here on this earth. Put here to feel joy. (Repeat four times)
    
    
    
    
    ++++++++++++++++++
     I want love [Lc]
    ++++++++++++++++++
    
    Composer:Akira Yamaoka
    Performed By: Melissa Williamson
    Length: 2:45
    
    
    (0:37)I want a river full of love
    (0:49)I need an ocean full of love
    
    (1:01)I want a cup that overflows with love
    (1:06)Although it's not enough to fill my heart
    
    (1:13)I want a barrel full of love
    (1:16)Although I know it's not enough to fill my heart
    
    (1:25)I want a river full of love
    (1:28)But then I know the holes will still remain
    
    (1:37)I need an ocean full of love
    (1:40)Although I know the holes will still remain
    
    
    
    
    +++++++++++++++++++++++++++++++
     I want love (studio mix) [Ld]
    +++++++++++++++++++++++++++++++
    
    Composer:Akira Yamaoka
    Performed By: Melissa Williamson
    Length: 4:40
    
    
    (0:30)I want a cup that overflows with love
    (0:35)Although it's not enough to fill my heart
    
    (0:42)I want a barrel full of love
    (0:45)Although I know it's not enough to fill my heart
    
    (0:54)I want a river full of love
    (0:57)But then I know the holes will still remain
    
    (1:06)I need an ocean full of love
    (1:09)I know the holes will still remain
    
    (1:18)And this Swiss cheese heart knows
    (1:24)Only kindness can fill its holes
    (1:30)I'd love to dry my tears
    (1:35)As pain disappears
    
    (1:40)I need a miracle and not someone's charity
    (1:46)One drop of love from him and my heart's in ecstasy
    (1:51)The high that is sending me is most likely ending me
    (1:57)I need a miracle and not someone's charity, now
    
    (2:58)Fill up my heart with love
    (3:01)Oh you'd be amazed at how
    (3:04)Little I need from him
    (3:06)To feel complete here and now
    (3:09)Stirring within me are,
    (3:12)These feelings I can't ignore
    (3:15)I need a miracle and that's what I'm hoping for
    
    (3:20)I need a miracle and not someone's charity
    (3:26)One drop of love from him and my heart's in ecstasy
    (3:32)The high that is sending me is most likely ending me
    (3:37)I need a miracle and not someone's charity, now
    
    (4:05)Anybody's love but his
    (4:10)Will never fill this place within...me now
    (4:15)Doctor give me what I need
    (4:21)To free my heart from misery.
    
    
    
    
    +++++++++++++++
     Hometown [Le]
    +++++++++++++++
    
    Composer: Akira Yamaoka
    Performed By: Joe Romersa
    Length: 6:04
    
    
    (0:10)He spoke of tortured souls,
    (0:18)So outrageous the toll
    (0:24)You can lose all you have
    (0:29)He refused to give in,
    (0:34)To the town that takes all.
    (0:40)Survive you must have the will
    (0:51)This movie doesn't end the way we want,
    (0:55)All the time Then he shouts at the moon.
    (1:01)"She's gone!" and fear has overcome.
    
    (1:10)He was walking the mile
    (1:15)He was walking alone...
    
    (1:40)So outrageous the toll
    (1:45)You can lose all you have
    (1:51)He refused to give in
    (1:56)To the town that takes all.
    (2:02)Survive you must have the will
    (2:13)This movie doesn't end the way we want,
    (2:17)All the time Then he shouts at the moon.
    (2:23)"She's Gone!" and fear has overcome.
    
    (2:31)He was walking the mile
    (2:37)He was walking alone
    
    (2:43)Four and twenty dead birds
    (2:48)They bleed upon the nest
    (2:53)There was no time for reasons
    (2:58)They had no sign of a threat.
    
    (3:03)Now it's too late
    (3:07)Too late for me,
    (3:10)This town will eventually take me
    (3:15)Too late, too late for me
    (3:21)This town will win.
    
    {Spoken}
    (3:24)Through this fog they came along
    (3:27)Dark creatures singing a terrible song
    (3:30)The rest of the bar laughed at him
    (3:33)Only I felt my hope grow dim
    (3:37)They found him dead the very next day
    (3:40)No more stories from him, I heard them say
    (3:44)We blame bad luck, for his fate.
    (3:47)Only I felt terror so great.
    
    {Sung}
    (3:51)She and he will know...
    (3:56)That someday...
    (4:01)All things will end...
    
    (4:05)That misty night
    (4:07)That dismal moon
    (4:10)The dead search for their kin
    (4:15)While angels sing, in endless dark
    (4:20)The dead seek out sin.
    
    
    
    
    +++++++++++++++++++++++++++
     The Silent Hill Song [Lf] 
    +++++++++++++++++++++++++++
    
    NOTE: This is copied directly from the text during the ending, I won't be 
          posting the times since they would be inacurate.
    
    Length: 5:43 (Length of the ending)
    
    Come on, kiddies! Gather around!
    Now, tell me, everyone...
    Aren't you sick and tired of that ol' UFO ending?
    That's right! Be honest!
    Honesty helps you grow big and strong!
    Okay, you fine youngsters, let's all sing the Silent Hill song!
    Ready? And-a one, and-a two, and-a one, two, five, seven...
    
    Everybody sing the Silent Hill song
    Come on, friends - let's sing along
    
    We'll start with Claudia!
    You don't all have to sing!
    Claudia, Claudia
    She's oh so nice, and I'm glad
    She gives us all candy and money to spend
    Just be sure that you don't get her mad
    
    Everybody sing the Silent Hill song
    Come on, friends - let's sing along
    
    Next up is Vincent!
    Here we go!
    Vincent, Vincent
    He's such a good boy, it's true
    He walks old ladies across the street
    But he's selfish and so willful, too
    
    Everybody sing the Silent Hill song
    Come on, friends - let's sing along
    
    Now on to Douglas!
    Douglas, Douglas
    He's not really a true-blue P.I.
    He gets up awful early and smells of the sea
    Because he sells fish on the sly
    
    Everybody sing the Silent Hill song
    Come on, friends - let's sing along
    
    Last but not least, Heather!
    Heather, Heather
    Divorced with two kids on her own
    It's so hard to raise 'em and still go to work
    A young mom who goes it alone
    
    Everybody sing the Silent Hill song
    Come on, friends - let's sing along
    
    Everybody sing the Silent Hill song
    Come on, friends - let's sing along
    
    
    
    
    ==========
     Tabs [T]
    ==========
    
    
    ++++++++++++++++++
     I want love [Ta]
    ++++++++++++++++++
    
    
    I Want Love (studio version) - Akira Yamaoka
    
    Silent Hill 3 Soundtrack
    
    
    Transcribed by Andrew Sullivan aka The Overlord
    email: overlordx@phreaker.net
           xx_overlord_xx@yahoo.com
    
    
    
    
    Tune down 1/2 step - "Dropped C#"
    
    essentially Dropped D (DADGBE) and then lowered 1/2
    
    KEY:
    
    / or \ - slide up or down
       h   - hammer on
       p   - pull off
       b   - bend to following note
      (X)  - light touch
      PH   - pinch harmonic
      PM   - palm mute
    
    
       Gtr 1 - Light dist.
        Let ring
    -------------------------------------------------------------
    D#|--0--0------------|------------------------|---------------------------|
    A#|--0---0------0----|---------15-------------|------------13-------------|
    F#|:-5----5---5---5/-|----12--------12--------|-------10--------10--------|
    C#|:-7-----7---------|-12----12--------12-----|----10----10--------10-----|
    G#|------------------|--------------------14\-|-12--------------------12\-|
    C#|------------------|------------------------|---------------------------|
    
    ----------------------|
    |--------------------|
    |--------------------|
    |------9------------:|
    |----9---9--7---9---:| 6x
    |-10--------8---10---|
    |--------------------|
    
    
    On 5th repeat:
    
       Gtr 2 - Clean w/ wah (let ring)
    D#|--5----------------|-7---------------------|-8-------------------------|
    A#|--(5)--------------|-(7)-------------------|-(8)-----------------------|
    
    |-7------------------| 2x
    |-(7)----------------|
    
    END INTRO
    
    
    Pre Chorus:
    
      Gtr 1 (slightly heavier than before)
    |---------------------------------|
    |---------------------------------|
    |---------------------------------|
    |-6-6-6-6-6-6-6-7-7-7-7-7-7-7-7-7-| 3x then
    |-6-6-6-6-6-6-6-7-7-7-7-7-7-7-7-7-|
    |-6-6-6-6-6-6-6-7-7-7-7-7-7-7-7-7-|
            And the swiss cheese heart knows....
    
    |-----------------------------|
    |-----------------------------|
    |-----------------------------|
    |-6-6-6-6-6-6-6--7------------|
    |-6-6-6-6-6-6-6--7------------|
    |-6-6-6-6-6-6-6--7------------|
    
    
    
       Gtr 2 (add a small serving of funk [see note 1])
    C#|-6-6-6-6-6-6-6-7-7-7-7-7-7-7-7h9-7| 3x then
    G#|----------------------------------|
    
    |-6-6-6-6-6-6-6--7-----------|
    |----------------------------|
    
       Gtr 3 - Dist
    D#|---------------------------------|-------------------------------|
    A#|----------------------8----------|----------------------8---10---|
    F#|--------------------9-----9------|--------------------9---9------|
    2x
    C#|---------------------------------|-------------------------------|
    G#|---------------------------------|-------------------------------|
    C#|---------------------------------|-------------------------------|
    
    
    Chorus:
    
      Gtr 1
    |----------------------------------|
    |----------------------------------|
    |----------------------------------|
    |-7-7-7--5---5-5-5-3-3-3--5--5-5-5-| 4x
    |-7-7-7--5---5-5-5-3-3-3--5--5-5-5-|
    |-7-7-7--5---5-5-5-3-3-3--5--5-5-5-|
    
      Gtr 2
    |------------------------------------|
    |------------------------------------|
    |------------------------------------|
    |-10-10-10--9--9-9-9-7-7-7--9--9-9-9-| 4x
    |-10-10-10--9--9-9-9-7-7-7--9--9-9-9-|
    |-10-10-10--9--9-9-9-7-7-7--9--9-9-9-|
    
    
      Gtr 1
    |--------------|
    |-0------------|
    |---5----------|
    |-----7--------|
    |--------------|
    |--------------|
    
    
    Solo backing:
    
      Gtr 1
    |-------------------------------------|
    |-------------------------------------|
    |-------------------------------------|
    |-6-6-6-6-10-10-10-10-5-5-5-5-2-2-2-2-| 8x
    |-6-6-6-6-10-10-10-10-5-5-5-5-2-2-2-2-|
    |-6-6-6-6-10-10-10-10-5-5-5-5-2-2-2-2-|
    
      Gtr 2 (after 4x)
    
    |-------------------------------------|---------------------------------|
    |-------------------------------------|---------------8-----------------|
    |----------------9--7-------7---------|-----------9-----9-----7---------|
    |-6-----9---10-----------10---10-9-10-|-6--9-10------------10---10-9-10-|
    2x
    |-------------------------------------|---------------------------------|
    |-------------------------------------|---------------------------------|
    
    Solo:
    
     Gtr 3: Add wah action throughout, also see note 2
              PH
    |-------------------------------------------------------------|
    |-------------------------------------------------------------|
    |-5h7-----7b9---7h9p7\5h7p5/5h5p4-----------------------------|
    |--------------------------------5h9p5\4h5p4------------------|
    |-------------------------------------------3h5p3/7--7--------|
    |-------------------------------------------------------------|
      PM
                         PH      PH  PH
    |-------------------------------------------------------------|
    |-------------------------------------------------------------|
    |--------------------------------5\------5-----7h9p7------5---|
    |------------------------5---7-------5h7---7----------5h7---7-|
    |----------------5---7----------------------------------------|
    |-5--7----9-10------------------------------------------------|
    
                      PH    PH                         PH
    |--------------------------------------------------8-8-7------|
    |-----------8---------------------------------8/10-------10---|
    |-----5--7b9-b7---5h7p5-4h5p4------4-5--7--9----------------9-|
    |-5h7-------------------------5-7-----------------------------|
    |-------------------------------------------------------------|
    |-------------------------------------------------------------|
    
            PH   PH    PH
             PH
    |------------------------------------------------------/12---12-12--\|
    |-10----10---10-12-12h13---12-13-12-13-13/15---10----10--------------|
    |-----9----9---------------------------------------9-------9---------|
    |--------------------------------------------------------------------|
    |--------------------------------------------------------------------|
    |--------------------------------------------------------------------|
    
            PH    PH   PH
          PH PH  PH PH
    |------------------------------------------------------/12---12-12--12-12-|
    |-10----10---10-12-12h13---12-13-12-13-13/15---10----10-------------------|
    |-----9----9---------------------------------------9-------9--------------|
    |-------------------------------------------------------------------------|
    |-------------------------------------------------------------------------|
    |-------------------------------------------------------------------------|
    
    END SOLO (phew!)
    
    
      Gtr 1
    
    |----------------------------------|
    |-----5----5----------0-------5----|
    |---5---4----4------2-------4------|
    |-7-----5------5--3------5---------|
    |----------------------------------|
    |----------------------------------|
    
    
    Gtr 1 & 2 Play chorus riff 8x
    
    
      Gtr 1
    |---------0--------------0-----0-----------0-----------0------------0-|
    |-----------0---------0--0-------0---------5-0-------0---------0------|
    |-------------5-----5----5---------5-------5---5---5---------5----5---|
    |-7---------------7------7-----------7-----7-----7---------7----------|
    |-7-------------------------------------------------------------------|
    |-7-------------------------------------------------------------------|
    
    
    |---------------------------------|
    |---------------------------------|
    |---------------------------------|
    |-3-3-3-3-3---X-5---5-5-5-5-5-5-5-| 4x - 4th time
    |-3-3-3-3-3---X-5---5-5-5-5-5-5-5-|      slow down
    |-3-3-3-3-3---X-5---5-5-5-5-5-5-5-|
    
        Gtr 2
    C#|-7-7-7-7-7---X-9---9-9-9-9-9-9/10-9-|
    G#|------------------------------------| 4x - 4th time
    slow down
    
    
      Gtr 1
    |--0------|
    |--0------|
    |--5------|
    |--7------|
    |---------|
    |---------|
    
    
    Fade out.
    
    
    
    Note 1: The rhythm of this riff is a little funky,
    just listen closely to the recording
    
    Note 2: The first bar of the solo is simplified since
    the wah makes it a little too slurred to get the exact
    notes down, so play it as I wrote it (which is as
    close as I could get it honestly) or improvise your
    own arpeggio scale
    
    
    
    
    ===================
     Spoken Tracks [S]
    ===================
    
    
    ++++++++++++++++++++++++++
     Float Up From Dream [Sa]
    ++++++++++++++++++++++++++
    
    Spoken By: Claudia
    Length: 1:22
    
    (0:43)They've come to witness the begging,
    (0:46)The rebirth of paradise dispoiled by mankind.
    (0:50)Remember me and your true self as well.
    (0:55)Also that which you must become,
    (0:58)The one who will lead us to paradise with blood-stained hands.
    
    
    
    
    ++++++++++
     Sun [Sb]
    ++++++++++
    
    Spoken By: Claudia
    Length: 1:47
    
    (0:00)In the beginning people had nothing,
    (0:03)Their bodies ached and their hearts held nothing but hatred.
    (0:09)They fought endlessly but death never came
    (0:13)They despaired stuck in the eternal quagmire
    
    (0:19)A man offered a serpent to the sun,
    (0:22)And prayed for salvation.
    (0:24)A woman offered a reed to the sun,
    (0:27)And asked for joy.
    (0:29)Feeling pity for the sadness that had overrun the earth
    (0:33)God was born from those two people.
    
    (0:37)God made time and divided it into day and night.
    (0:42)God outlined the road to salvation and gave people joy.
    (0:47)And God took endless time away from the people.
    (0:53)God created beings to lead people in obedience to her.
    
    (0:58)The red God Xuchlibari
    (1:00)The yellow God Lobsil Vith
    (1:04)Many Gods and Angels
    (1:07)Finally God set out to create paradise,
    (1:11)Where people would be happy by just being there.
    
    (1:16)But there God's strength ran out and she collapsed
    (1:21)All the world's people grieved this unfortunate event
    (1:24)Yet God breathed her last,
    (1:27)She returned to the dust promising to come again.
    
    (1:32)So God hasn't been lost,
    (1:35)We must offer her prayers and not forget our faith.
    (1:40)We wait in hope for the day...
    (1:42)When the path to paradise will be opened.
    
    
    
    
    +++++++++++++++++++++++++++
     Walk On Vanity Ruins [Sc]
    +++++++++++++++++++++++++++
    
    Spoken By: Claudia
    Length: 2:44
    
    (1:25)In here is a tragedy,
    (1:27)Art thou player or audience?
    (1:31)Be as it may, the end doth remain:
    (1:34)All go on only toward death.
    
    (1:39)The first word at thy left hand,
    (1:41)A false lunacy a madly dancing man
    (1:46)Hearing unhearable words, drawn to a beloved's grave.
    
    (1:50)And there, mayhap, true madness at last.
    (1:55)As did this one playing death find true death at last
    (2:02)Killing a nameless lover,
    (2:04)She peirced a heart rent by sorrow.
    
    (2:09)Douth lie invite truth?
    (2:11)Douth verity but wear the mask of falsehood?
    (2:16)Ah, thou pityful,
    (2:18)Thou miserable ones. Still admist lies,
    (2:23)Though the end cometh not,
    (2:25)Wherefore yern for death?
    (2:27)Will thou attend to thy beloved?
    
    (2:30)Truths and lies
    (2:32)Life and death
    (2:34)The game of turning white to black,
    (2:37)And black to white
    
    
    
    
    +++++++++++++++++++++++++++++++++
     Breeze in Monochrome Night [Sd]
    +++++++++++++++++++++++++++++++++
    
    Spoken By: Claudia
    Length: 4:14
    
    (3:54)There is another reason.
    (3:56)To fill your heart with hatred.
    (3:59)It must be this way.
    (4:01)One day you will understand why.
    (4:05)You must try to remember me and your true self as well.
    (4:10)You will birth a god and build an eternal paradise.
    
    
    
    
    +++++++++++++++++++++++++++++++++
     Clockwork Little Happiness [Se]
    +++++++++++++++++++++++++++++++++
    
    Spoken By: Claudia
    Length: 3:24
    
    (2:56)The time when all will be forgiven their sins.
    (3:00)When the paradise we have long dreamed for will arrive.
    (3:04)After the judgement and atonement an eternity of bliss.
    (3:09)Oh Alessa,
    (3:11)The world you wanted is nearly here.
    (3:15)I wish only for the salvation of mankind.
    (3:19)But for that to happen the world must first be remade.
    
    
    
    
    ++++++++++++++++++++++++++++
     Dance With Night Wind [Sf]
    ++++++++++++++++++++++++++++
    
    Spoken By: Claudia
    Length: 5:21
    
    (5:04)The world is teeming with unnecessary people.
    (5:08)It's god's decision that I fight.
    (5:13)As a knight of honour.
    (5:15)As a protector of the seal.
    (5:17)I sacrifice myself to the blood of criminals.
    
    
    
    
    =============
     Contact [C]
    =============
    
    To contact me please use one of the following methods:
    
    E-mail: EnixSquared@gmail.com
    Aim: EnixSquar3d
    Gamefaqs: dark solid snake
    
    
    
    
    =============
     Thanks [Thx]
    =============
    
    -CJayC: For posting this faq. </sucking-up>
    
    -Konami: For making one of the greatest video game series of all time Silent
    Hill.
    
    -OverlordX: For poviding the Tab of "I want love".
    
    -Postal075: For pointing out "Walk On Vanity Ruins" for me to work on.
    
    -Flanjr: For corrections on "I want love (Studio Mix)" and "You're not here" and
    helping me with other corrections.
    
    -Daniel Münnig: Gave me the spoken tracks I missed and
    typos I made and a lot of corrections.
    
    -Josh Ybarra: Gave me corrections on Lyrics.
    
    
    
    
    -End of Faq-